Jump to content
NHL'94 Forums

NHL 94 Theme Music


Recommended Posts

Nope :(

I've seen this asked a couple times, but I don't remember seeing any reply.

The bass doesn't sound too too hard to figure out in the Genesis version (

)

The SegaCD version might be easier for figuring out the guitar (http://www.youtube.com/watch?v=r7FcmvGj-JA)

But yeah.. sorry, don't think anyone has tabs for this

Link to comment
Share on other sites

Wow, that Sega CD version is GAAAAAA!

Here's tab... I'm a guitar/bass player. Note that the keyboard is playing some chords that aren't reflected here.

Structure:

A Section

B Section

A Section

B Section

Coda

A Section

Key: F Major

E|--------------------------------|--------------------------------|

B|--------------------------------|--------------------------------|

G|--------------------------------|--------------------------------|

D|---------------------8--7-------|--7-----------------------------|

A|--8-------8----10----------10---|-----10------10----8---10---8---|

E|-------8------------------------|--------------------------------|

E|--------------------------------|--------------------------------|

B|--------------------------------|--------------------------------|

G|--------------------------------|--------------------------------|

D|---------------------8--7-------|--7-----------8----8--8--8---7--|

A|--8-------8----10----------10---|-----10-------------------------|

E|-------8------------------------|--------------------------------|

B Section

Key: F Minor

E|--------------------------------|--------------------------------|

B|--------------------------------|--------------------------------|

G|--------------------------------|--------------------------------|

D|--------------------------------|------------8----8--------------|

A|-10---------------------------8-|-10----11------------11--10--11-|

E|-------11---8---11-----8--11----|--------------------------------|

E|--------------------------------|--------------------------------|

B|--------------------------------|--------------------------------|

G|--------------------------------|--------------------------------|

D|--------------------------------|--------------------------------|

A|-10---10--11---10--8--8------8--|-10---10--11--10--8--8----8-----|

E|--------------------------11----|-----------------------11---11--|

Coda

Key: F Dorian

E|--------------------------------|--------------------------------|

B|--------------------------------|--------------------------------|

G|--------------------------------|--------------------------------|

D|------------------8---10---12---|--13====---13=================--|

A|----8---10---11-----------------|--------------------------------|

E|--------------------------------|--------------------------------|

There's a couple crazy fills after the lines in the A section. The first one is mainly drums. The second one is a super-fast riff that goes into the B section. If this was helpful, maybe you can convince me to tab that s**t out too.

After initial post, I had to change the font because the character width messed up the spacing before. If the end of each line is messed up, try copying and pasting into notepad or a similar program.

Edited by da94wookiee
Link to comment
Share on other sites

  • 1 month later...



fhasiogyuo9a87ga8e90gjkefh7ui6t78oaw4g!!!!!!!! this is too good!

"Uploaded by Louie14DGB on May 20, 2009"

nhl94online.com is linked in the vid?!?!?! plz tell me someone here made this! i tried to do a member search and only came up with: Louie14. could it be?? anyone have any ideas?
Link to comment
Share on other sites

fhasiogyuo9a87ga8e90gjkefh7ui6t78oaw4g!!!!!!!! this is too good!

"Uploaded by Louie14DGB on May 20, 2009"

nhl94online.com is linked in the vid?!?!?! plz tell me someone here made this! i tried to do a member search and only came up with: Louie14. could it be?? anyone have any ideas?

Louie14DGB and Louie14 are undoubtedly the same person.

Don't know if he actually made the music, though..

Link to comment
Share on other sites

guessing from the youtube description he must have made it. pimp sheeeee man!

Oh yeah:

My take on Jim Simmons' masterpiece. Easily the best theme song in video gaming history. So intense it will make your head bleed and take you out for a period.

http://nhlpa93.nhl94.com/

http://www.nhl94.com

http://forum.nhl94.com

Apologies for the poor production, drumming, etc. NHL '92 next?

Awesome stuff, Louie14!

And thanks for posting it, mindpin

Also, it sounds even better when watching this animated GIF:

21c8ay8.jpg

Link to comment
Share on other sites

  • 3 weeks later...
  • 2 weeks later...

I was talking to the guy who plays the organ at the send game tonight and I asked if he knew the NHL 94 theme and he said no but wanted to look it up. I told him it had a cult following and he actually seemed like he would look it up and try playing it. I'll keep my ears open for it... I have faith in the guy!

Link to comment
Share on other sites

  • 2 months later...

good stuff. thanks!

Link to comment
Share on other sites

  • 7 months later...
  • 1 year later...

Hey all, I saw that you guys mentioned my video in this thread. Glad to see some people like it. Thanks!

I re-recorded it, so here's a new version.


Link to comment
Share on other sites

  • 1 month later...
  • 1 year later...

Join the conversation

You can post now and register later. If you have an account, sign in now to post with your account.

Guest
Reply to this topic...

×   Pasted as rich text.   Paste as plain text instead

  Only 75 emoji are allowed.

×   Your link has been automatically embedded.   Display as a link instead

×   Your previous content has been restored.   Clear editor

×   You cannot paste images directly. Upload or insert images from URL.

 Share

×
×
  • Create New...